Пьеса

Ели Мясо Мужики 

Соло №1: (играется с глушением)
e|---7-8-9-10-10-9-8-7-
H|-8-------------------

Соло №2: (играется с глушением)
E|-----10-10-9-8-7-
H|-8-8-------------

Бас №1:
A|---2-3-4-5-5-4-3-2-
E|-3-----------------

Бас №2:
A|-----5-5-4-3-2-
E|-3-3-----------

Сначала играется Соло №1 4 раза, вместе с ним играется Бас №1.
Затем играется Соло №2 2 раза, вместе с ним играется Бас №2, вместе
с этим играются аккорды G D C# C H 2 раза.

Все это повторяется 2 раза.